ISO-10303-21;
HEADER;
FILE_DESCRIPTION (( 'STEP AP203' ),
    '1' );
FILE_NAME ('BK7-RNDF-25.4-0.045.STEP',
    '2020-12-22T01:27:35',
    ( '' ),
    ( '' ),
    'SwSTEP 2.0',
    'SolidWorks 2020',
    '' );
FILE_SCHEMA (( 'CONFIG_CONTROL_DESIGN' ));
ENDSEC;

DATA;
#1 = CLOSED_SHELL ( 'NONE', ( #137, #148, #114, #17 ) ) ;
#2 = DIRECTION ( 'NONE',  ( 0.000000000000000000, 0.000000000000000000, 1.000000000000000000 ) ) ;
#3 = DIRECTION ( 'NONE',  ( 1.000000000000000000, 0.000000000000000000, 0.000000000000000000 ) ) ;
#4 = LINE ( 'NONE', #143, #33 ) ;
#5 = CYLINDRICAL_SURFACE ( 'NONE', #30, 12.69999999999999929 ) ;
#6 = CIRCLE ( 'NONE', #152, 12.69999999999999929 ) ;
#7 = CALENDAR_DATE ( 2020, 22, 12 ) ;
#8 = EDGE_LOOP ( 'NONE', ( #9, #66 ) ) ;
#9 = ORIENTED_EDGE ( 'NONE', *, *, #63, .T. ) ;
#10 = PERSON_AND_ORGANIZATION ( #47, #118 ) ;
#11 = DATE_AND_TIME ( #14, #146 ) ;
#12 = CALENDAR_DATE ( 2020, 22, 12 ) ;
#13 = CC_DESIGN_PERSON_AND_ORGANIZATION_ASSIGNMENT ( #60, #112, ( #74 ) ) ;
#14 = CALENDAR_DATE ( 2020, 22, 12 ) ;
#15 = APPROVAL_ROLE ( '' ) ;
#16 = DIRECTION ( 'NONE',  ( -1.000000000000000000, -0.000000000000000000, -0.000000000000000000 ) ) ;
#17 = ADVANCED_FACE ( 'NONE', ( #117 ), #81, .F. ) ;
#18 = VERTEX_POINT ( 'NONE', #83 ) ;
#19 = VERTEX_POINT ( 'NONE', #142 ) ;
#20 = SECURITY_CLASSIFICATION_LEVEL ( 'unclassified' ) ;
#21 = DIRECTION ( 'NONE',  ( -1.000000000000000000, -0.000000000000000000, -0.000000000000000000 ) ) ;
#22 = CARTESIAN_POINT ( 'NONE',  ( -1.187907395172932594E-15, 0.000000000000000000, 0.000000000000000000 ) ) ;
#23 = DESIGN_CONTEXT ( 'detailed design', #161, 'design' ) ;
#24 = COORDINATED_UNIVERSAL_TIME_OFFSET ( 8, 0, .AHEAD. ) ;
#25 = APPROVAL_DATE_TIME ( #164, #134 ) ;
#26 = PERSON_AND_ORGANIZATION_ROLE ( 'creator' ) ;
#27 = APPROVAL_PERSON_ORGANIZATION ( #175, #48, #163 ) ;
#28 = CALENDAR_DATE ( 2020, 22, 12 ) ;
#29 = PERSON_AND_ORGANIZATION ( #47, #118 ) ;
#30 = AXIS2_PLACEMENT_3D ( 'NONE', #89, #21, #140 ) ;
#31 = CALENDAR_DATE ( 2020, 22, 12 ) ;
#32 = LOCAL_TIME ( 9, 27, 35.00000000000000000, #44 ) ;
#33 = VECTOR ( 'NONE', #16, 1000.000000000000000 ) ;
#34 = PRODUCT_DEFINITION ( 'UNKNOWN', '', #74, #23 ) ;
#35 = DIRECTION ( 'NONE',  ( -1.000000000000000000, -0.000000000000000000, -0.000000000000000000 ) ) ;
#36 = EDGE_LOOP ( 'NONE', ( #53, #94 ) ) ;
#37 = EDGE_LOOP ( 'NONE', ( #123, #157, #131, #52 ) ) ;
#38 = AXIS2_PLACEMENT_3D ( 'NONE', #100, #43, #98 ) ;
#39 = CARTESIAN_POINT ( 'NONE',  ( 1.999999999999998224, 1.555301434917138433E-15, -12.69999999999999929 ) ) ;
#40 = DIRECTION ( 'NONE',  ( 0.000000000000000000, 0.000000000000000000, 1.000000000000000000 ) ) ;
#41 = DIRECTION ( 'NONE',  ( -1.000000000000000000, -0.000000000000000000, -0.000000000000000000 ) ) ;
#42 = MECHANICAL_CONTEXT ( 'NONE', #151, 'mechanical' ) ;
#43 = DIRECTION ( 'NONE',  ( 0.000000000000000000, 0.000000000000000000, 1.000000000000000000 ) ) ;
#44 = COORDINATED_UNIVERSAL_TIME_OFFSET ( 8, 0, .AHEAD. ) ;
#45 = APPROVAL_PERSON_ORGANIZATION ( #29, #134, #15 ) ;
#46 = AXIS2_PLACEMENT_3D ( 'NONE', #159, #35, #40 ) ;
#47 = PERSON ( 'UNSPECIFIED', 'UNSPECIFIED', 'UNSPECIFIED', ('UNSPECIFIED'), ('UNSPECIFIED'), ('UNSPECIFIED') ) ;
#48 = APPROVAL ( #59, 'UNSPECIFIED' ) ;
#49 = EDGE_LOOP ( 'NONE', ( #92, #76, #120, #106 ) ) ;
#50 = LOCAL_TIME ( 9, 27, 35.00000000000000000, #24 ) ;
#51 = CARTESIAN_POINT ( 'NONE',  ( 0.000000000000000000, 0.000000000000000000, 0.000000000000000000 ) ) ;
#52 = ORIENTED_EDGE ( 'NONE', *, *, #166, .F. ) ;
#53 = ORIENTED_EDGE ( 'NONE', *, *, #75, .F. ) ;
#54 = DIRECTION ( 'NONE',  ( 0.000000000000000000, 0.000000000000000000, -1.000000000000000000 ) ) ;
#55 = PRODUCT_DEFINITION_SHAPE ( 'NONE', 'NONE',  #34 ) ;
#56 = AXIS2_PLACEMENT_3D ( 'NONE', #51, #156, #90 ) ;
#57 = EDGE_CURVE ( 'NONE', #103, #104, #133, .T. ) ;
#58 = PERSON_AND_ORGANIZATION ( #47, #118 ) ;
#59 = APPROVAL_STATUS ( 'not_yet_approved' ) ;
#60 = PERSON_AND_ORGANIZATION ( #47, #118 ) ;
#61 = UNCERTAINTY_MEASURE_WITH_UNIT (LENGTH_MEASURE( 1.000000000000000082E-05 ), #86, 'distance_accuracy_value', 'NONE');
#62 = LOCAL_TIME ( 9, 27, 35.00000000000000000, #111 ) ;
#63 = EDGE_CURVE ( 'NONE', #18, #104, #139, .T. ) ;
#64 = FACE_OUTER_BOUND ( 'NONE', #37, .T. ) ;
#65 = FACE_OUTER_BOUND ( 'NONE', #36, .T. ) ;
#66 = ORIENTED_EDGE ( 'NONE', *, *, #166, .T. ) ;
#67 = AXIS2_PLACEMENT_3D ( 'NONE', #122, #95, #170 ) ;
#68 = DATE_AND_TIME ( #31, #50 ) ;
#69 = CC_DESIGN_APPROVAL ( #134, ( #78 ) ) ;
#70 = EDGE_CURVE ( 'NONE', #103, #19, #6, .T. ) ;
#71 = APPLICATION_PROTOCOL_DEFINITION ( 'international standard', 'config_control_design', 1994, #161 ) ;
#72 = APPROVAL_DATE_TIME ( #85, #48 ) ;
#73 = SHAPE_DEFINITION_REPRESENTATION ( #55, #121 ) ;
#74 = PRODUCT_DEFINITION_FORMATION_WITH_SPECIFIED_SOURCE ( 'ANY', '', #109, .NOT_KNOWN. ) ;
#75 = EDGE_CURVE ( 'NONE', #19, #103, #108, .T. ) ;
#76 = ORIENTED_EDGE ( 'NONE', *, *, #57, .T. ) ;
#77 = CARTESIAN_POINT ( 'NONE',  ( -1.187907395172932594E-15, 1.555301434917138433E-15, -12.69999999999999929 ) ) ;
#78 = SECURITY_CLASSIFICATION ( '', '', #20 ) ;
#79 = DIRECTION ( 'NONE',  ( -1.000000000000000000, -0.000000000000000000, -0.000000000000000000 ) ) ;
#80 = CC_DESIGN_DATE_AND_TIME_ASSIGNMENT ( #11, #99, ( #34 ) ) ;
#81 = PLANE ( 'NONE',  #155 ) ;
#82 = PERSON_AND_ORGANIZATION ( #47, #118 ) ;
#83 = CARTESIAN_POINT ( 'NONE',  ( -1.187907395172932594E-15, 0.000000000000000000, 12.69999999999999929 ) ) ;
#84 = VECTOR ( 'NONE', #79, 1000.000000000000000 ) ;
#85 = DATE_AND_TIME ( #28, #32 ) ;
#86 =( LENGTH_UNIT ( ) NAMED_UNIT ( * ) SI_UNIT ( .MILLI., .METRE. ) );
#87 = CC_DESIGN_PERSON_AND_ORGANIZATION_ASSIGNMENT ( #82, #116, ( #78 ) ) ;
#88 = AXIS2_PLACEMENT_3D ( 'NONE', #158, #132, #102 ) ;
#89 = CARTESIAN_POINT ( 'NONE',  ( 0.000000000000000000, 0.000000000000000000, 0.000000000000000000 ) ) ;
#90 = DIRECTION ( 'NONE',  ( 0.000000000000000000, 0.000000000000000000, 1.000000000000000000 ) ) ;
#91 = COORDINATED_UNIVERSAL_TIME_OFFSET ( 8, 0, .AHEAD. ) ;
#92 = ORIENTED_EDGE ( 'NONE', *, *, #75, .T. ) ;
#93 = CC_DESIGN_DATE_AND_TIME_ASSIGNMENT ( #105, #128, ( #78 ) ) ;
#94 = ORIENTED_EDGE ( 'NONE', *, *, #70, .F. ) ;
#95 = DIRECTION ( 'NONE',  ( -1.000000000000000000, 0.000000000000000000, -0.000000000000000000 ) ) ;
#96 = PRODUCT_RELATED_PRODUCT_CATEGORY ( 'detail', '', ( #109 ) ) ;
#97 = COORDINATED_UNIVERSAL_TIME_OFFSET ( 8, 0, .AHEAD. ) ;
#98 = DIRECTION ( 'NONE',  ( 1.000000000000000000, 0.000000000000000000, 0.000000000000000000 ) ) ;
#99 = DATE_TIME_ROLE ( 'creation_date' ) ;
#100 = CARTESIAN_POINT ( 'NONE',  ( 0.000000000000000000, 0.000000000000000000, 0.000000000000000000 ) ) ;
#101 =( NAMED_UNIT ( * ) SI_UNIT ( $, .STERADIAN. ) SOLID_ANGLE_UNIT ( ) );
#102 = DIRECTION ( 'NONE',  ( 0.000000000000000000, 0.000000000000000000, 1.000000000000000000 ) ) ;
#103 = VERTEX_POINT ( 'NONE', #39 ) ;
#104 = VERTEX_POINT ( 'NONE', #77 ) ;
#105 = DATE_AND_TIME ( #7, #113 ) ;
#106 = ORIENTED_EDGE ( 'NONE', *, *, #129, .F. ) ;
#107 = DIRECTION ( 'NONE',  ( 0.000000000000000000, 0.000000000000000000, 1.000000000000000000 ) ) ;
#108 = CIRCLE ( 'NONE', #46, 12.69999999999999929 ) ;
#109 = PRODUCT ( 'BK7-RNDF-25.4-0.045', 'BK7-RNDF-25.4-0.045', '', ( #42 ) ) ;
#110 = CC_DESIGN_PERSON_AND_ORGANIZATION_ASSIGNMENT ( #173, #135, ( #109 ) ) ;
#111 = COORDINATED_UNIVERSAL_TIME_OFFSET ( 8, 0, .AHEAD. ) ;
#112 = PERSON_AND_ORGANIZATION_ROLE ( 'creator' ) ;
#113 = LOCAL_TIME ( 9, 27, 35.00000000000000000, #91 ) ;
#114 = ADVANCED_FACE ( 'NONE', ( #65 ), #141, .F. ) ;
#115 = CC_DESIGN_APPROVAL ( #153, ( #34 ) ) ;
#116 = PERSON_AND_ORGANIZATION_ROLE ( 'classification_officer' ) ;
#117 = FACE_OUTER_BOUND ( 'NONE', #8, .T. ) ;
#118 = ORGANIZATION ( 'UNSPECIFIED', 'UNSPECIFIED', '' ) ;
#119 = CARTESIAN_POINT ( 'NONE',  ( 0.000000000000000000, 1.555301434917138433E-15, -12.69999999999999929 ) ) ;
#120 = ORIENTED_EDGE ( 'NONE', *, *, #63, .F. ) ;
#121 = ADVANCED_BREP_SHAPE_REPRESENTATION ( 'BK7-RNDF-25.4-0.045', ( #144, #38 ), #130 ) ;
#122 = CARTESIAN_POINT ( 'NONE',  ( 1.999999999999999112, 12.69999999999999929, 0.000000000000000000 ) ) ;
#123 = ORIENTED_EDGE ( 'NONE', *, *, #57, .F. ) ;
#124 = APPROVAL_PERSON_ORGANIZATION ( #10, #153, #149 ) ;
#125 =( NAMED_UNIT ( * ) PLANE_ANGLE_UNIT ( ) SI_UNIT ( $, .RADIAN. ) );
#126 = APPLICATION_PROTOCOL_DEFINITION ( 'international standard', 'config_control_design', 1994, #151 ) ;
#127 = APPROVAL_STATUS ( 'not_yet_approved' ) ;
#128 = DATE_TIME_ROLE ( 'classification_date' ) ;
#129 = EDGE_CURVE ( 'NONE', #19, #18, #4, .T. ) ;
#130 =( GEOMETRIC_REPRESENTATION_CONTEXT ( 3 ) GLOBAL_UNCERTAINTY_ASSIGNED_CONTEXT ( ( #61 ) ) GLOBAL_UNIT_ASSIGNED_CONTEXT ( ( #86, #125, #101 ) ) REPRESENTATION_CONTEXT ( 'NONE', 'WORKASPACE' ) );
#131 = ORIENTED_EDGE ( 'NONE', *, *, #129, .T. ) ;
#132 = DIRECTION ( 'NONE',  ( -1.000000000000000000, -0.000000000000000000, -0.000000000000000000 ) ) ;
#133 = LINE ( 'NONE', #119, #84 ) ;
#134 = APPROVAL ( #136, 'UNSPECIFIED' ) ;
#135 = PERSON_AND_ORGANIZATION_ROLE ( 'design_owner' ) ;
#136 = APPROVAL_STATUS ( 'not_yet_approved' ) ;
#137 = ADVANCED_FACE ( 'NONE', ( #145 ), #5, .T. ) ;
#138 = CC_DESIGN_SECURITY_CLASSIFICATION ( #78, ( #74 ) ) ;
#139 = CIRCLE ( 'NONE', #88, 12.69999999999999929 ) ;
#140 = DIRECTION ( 'NONE',  ( 0.000000000000000000, 0.000000000000000000, 1.000000000000000000 ) ) ;
#141 = PLANE ( 'NONE',  #67 ) ;
#142 = CARTESIAN_POINT ( 'NONE',  ( 1.999999999999998224, 0.000000000000000000, 12.69999999999999929 ) ) ;
#143 = CARTESIAN_POINT ( 'NONE',  ( 0.000000000000000000, 0.000000000000000000, 12.69999999999999929 ) ) ;
#144 = MANIFOLD_SOLID_BREP ( 'Ðý×', #1 ) ;
#145 = FACE_OUTER_BOUND ( 'NONE', #49, .T. ) ;
#146 = LOCAL_TIME ( 9, 27, 35.00000000000000000, #97 ) ;
#147 = APPROVAL_DATE_TIME ( #68, #153 ) ;
#148 = ADVANCED_FACE ( 'NONE', ( #64 ), #169, .T. ) ;
#149 = APPROVAL_ROLE ( '' ) ;
#150 = AXIS2_PLACEMENT_3D ( 'NONE', #22, #41, #2 ) ;
#151 = APPLICATION_CONTEXT ( 'configuration controlled 3d designs of mechanical parts and assemblies' ) ;
#152 = AXIS2_PLACEMENT_3D ( 'NONE', #171, #154, #107 ) ;
#153 = APPROVAL ( #127, 'UNSPECIFIED' ) ;
#154 = DIRECTION ( 'NONE',  ( -1.000000000000000000, -0.000000000000000000, -0.000000000000000000 ) ) ;
#155 = AXIS2_PLACEMENT_3D ( 'NONE', #167, #3, #54 ) ;
#156 = DIRECTION ( 'NONE',  ( -1.000000000000000000, -0.000000000000000000, -0.000000000000000000 ) ) ;
#157 = ORIENTED_EDGE ( 'NONE', *, *, #70, .T. ) ;
#158 = CARTESIAN_POINT ( 'NONE',  ( -1.187907395172932594E-15, 0.000000000000000000, 0.000000000000000000 ) ) ;
#159 = CARTESIAN_POINT ( 'NONE',  ( 1.999999999999998224, 0.000000000000000000, 0.000000000000000000 ) ) ;
#160 = PERSON_AND_ORGANIZATION_ROLE ( 'design_supplier' ) ;
#161 = APPLICATION_CONTEXT ( 'configuration controlled 3d designs of mechanical parts and assemblies' ) ;
#162 = CC_DESIGN_PERSON_AND_ORGANIZATION_ASSIGNMENT ( #58, #26, ( #34 ) ) ;
#163 = APPROVAL_ROLE ( '' ) ;
#164 = DATE_AND_TIME ( #12, #62 ) ;
#165 = PERSON_AND_ORGANIZATION ( #47, #118 ) ;
#166 = EDGE_CURVE ( 'NONE', #104, #18, #174, .T. ) ;
#167 = CARTESIAN_POINT ( 'NONE',  ( -5.939536975864662969E-16, 12.69999999999999929, 0.000000000000000000 ) ) ;
#168 = CC_DESIGN_APPROVAL ( #48, ( #74 ) ) ;
#169 = CYLINDRICAL_SURFACE ( 'NONE', #56, 12.69999999999999929 ) ;
#170 = DIRECTION ( 'NONE',  ( -0.000000000000000000, 0.000000000000000000, 1.000000000000000000 ) ) ;
#171 = CARTESIAN_POINT ( 'NONE',  ( 1.999999999999998224, 0.000000000000000000, 0.000000000000000000 ) ) ;
#172 = CC_DESIGN_PERSON_AND_ORGANIZATION_ASSIGNMENT ( #165, #160, ( #74 ) ) ;
#173 = PERSON_AND_ORGANIZATION ( #47, #118 ) ;
#174 = CIRCLE ( 'NONE', #150, 12.69999999999999929 ) ;
#175 = PERSON_AND_ORGANIZATION ( #47, #118 ) ;
ENDSEC;
END-ISO-10303-21;
